行きたい日付からパパッと検索!航空券の最安値が見つかる!

Los Angeles
Los Angeles International Airport

Osaka
Kansai International Airport

 Kansai Airport Los Angeles 

Prices vary with departure date. Click on the calendar to select a departure date.

Departure Date

2019/10
Sun Mon Tue Wed Thu Fri Sat
1------2------3------4------5------
6------7------8------9------10------11------12------
13------14------15------16------17------18------19------
20------21------22------23------24------2541026734
2758628829298203068131616
Select Return Date   Change Departure Date

Return Date

2019/10
SunMonTueWedThuFriSat
1------2------3------4------5------
6------7------8------9------10------11------12------
13------14------15------16------17------18------19------
20------21------22------23------24------25------26------
27------28------29------30------31------
  Select Departure Date

Currency:US Dollar Loading Searching Fares Updating Fares

Departure Date
Return Date
Total Fares(Round Trip/Economy)

* Displayed fare(s) may differ from the actual search result

  • Los Angeles-Osaka
    Estimated Flight Time

    12Hours30Minutes
  • Los Angeles-Osaka
    Number of Operating Airlines

    26

Travel overseas with affordable air tickets on popular airlines!

Cheap air tickets between Los Angeles and Osaka on skyticket!

Get the lowest airfares for routes from Los Angeles toOsaka!

Cheapest airfares from skyticket for family tours!

Booking made easy on skyticket for cheap air tickets and budgeted airfares!

Great deals for overseas travels with the cheap air tickets from skyticket!

Easy reservation on skyticket! Fly on the lowest airfares available!

Use skyticket for budget holiday.

Search and book your flights on skyticket's hassle-free platform!

From low cost carriers (LCCs) to major airlines - find budget airfares on skyticket!

Book Budget Flights with skyticket / Cheap Airfares for Flights from
Los Angeles-Kansai Airport

ステータス:
メッセージ1
メッセージ2
メッセージ3
メッセージ4
メッセージ5
メッセージ6
メッセージ7
メッセージ8
メッセージ9
メッセージ10
メッセージ11
メッセージ12
メッセージ13
メッセージ14