行きたい日付からパパッと検索!航空券の最安値が見つかる!

Las Vegas
McCarran International Airport

Boston
Logan International Airport

 Logan Airport McCarran 

Prices vary with departure date. Click on the calendar to select a departure date.

Departure Date

2020/2
Sun Mon Tue Wed Thu Fri Sat
1------
2------3------4------5------6------7------8------
9------10------11------12------13------14------15------
16------17------18------19------20------21------22------
23------24------25------26------27Search2828429Search
Select Return Date   Change Departure Date

Return Date

2020/2
SunMonTueWedThuFriSat
1------
2------3------4------5------6------7------8------
9------10------11------12------13------14------15------
16------17------18------19------20------21------22------
23------24------25------26------27------28------29------
  Select Departure Date

Currency:US Dollar Loading Searching Fares Updating Fares

Departure Date
Return Date
Total Fares(Round Trip/Economy)

* Displayed fare(s) may differ from the actual search result

  • Las Vegas-Boston
    Estimated Flight Time

    4Hours56Minutes
  • Las Vegas-Boston
    Number of Operating Airlines

    5

Easy reservation on skyticket! Fly on the lowest airfares available!

Easy reservation! Get the best deals on cheap air tickets!

Travel overseas with skyticket's budgeted airfares!

Reserve your cheap air tickets on skyticket!

Reserve your air tickets now to get the best deals on skyticket!

From Economy class to the luxurious First class, book now with skyticket for the Best Airfares!

Easy reservation and cheapest tickets! Get the best travel deals on skyticket!

Easy reservation with skyticket! Recommended low airfare searches!

Fast and easy booking for cheap air tickets!

Book air tickets on skyticket and get the best travel deals!

Book Budget Flights with skyticket / Cheap Airfares for Flights from
McCarran-Logan Airport

ステータス:
メッセージ1
メッセージ2
メッセージ3
メッセージ4
メッセージ5
メッセージ6
メッセージ7
メッセージ8
メッセージ9
メッセージ10
メッセージ11
メッセージ12
メッセージ13
メッセージ14