行きたい日付からパパッと検索!航空券の最安値が見つかる!

Okinawa
Naha Airport

Taipei
Taoyuan International Airport

 Taoyuan Airport Naha 

Prices vary with departure date. Click on the calendar to select a departure date.

Departure Date

2021/7
Sun Mon Tue Wed Thu Fri Sat
1------2------3------
4------5------6------7------8------9------10------
11------12------13------14------15------16------17------
18------19------20------21------22------23------24------
25------26------27------28------29------30Search31556
Select Return Date   Change Departure Date

Return Date

2021/7
SunMonTueWedThuFriSat
1------2------3------
4------5------6------7------8------9------10------
11------12------13------14------15------16------17------
18------19------20------21------22------23------24------
25------26------27------28------29------30------31------
  Select Departure Date

Currency:US Dollar Loading Searching Fares Updating Fares

Departure Date
Return Date
Total Fares(Round Trip/Economy)

* Displayed fare(s) may differ from the actual search result

  • Okinawa-Taipei
    Estimated Flight Time

    1Hours40Minutes
  • Okinawa-Taipei
    Number of Operating Airlines

    24

Enjoy breathtaking views of travel spots with easy reservation on skyticket!

Solo travelers! The best airfares are available here on skyticket!

Budget travelers! Book cheap air tickets on skyticket!

Online reservation available 24-hours a day from skyticket! Search and book your flights to Taoyuan International Airport now!

Travel worldwide to anywhere in Europe, Asia or America with the best airfares! Search now on skyticket!

Cheap air tickets from Okinawa to Taipei on skyticket!

Cheap air tickets between Okinawa and Taipei on skyticket!

Enjoy student trips with cheap air tickets from skyticket!

Couple Travels! Get the lowest air tickets from skyticket!

Book Budget Flights with skyticket / Cheap Airfares for Flights from
Naha-Taoyuan Airport

ステータス:
メッセージ1
メッセージ2
メッセージ3
メッセージ4
メッセージ5
メッセージ6
メッセージ7
メッセージ8
メッセージ9
メッセージ10
メッセージ11
メッセージ12
メッセージ13
メッセージ14