行きたい日付からパパッと検索!航空券の最安値が見つかる!

Tokyo
Narita International Airport

Urumqi
Urumqi Diwopu International Airport

 Urumqi Diwopu Airport Narita 

Prices vary with departure date. Click on the calendar to select a departure date.

Departure Date

2020/9
Sun Mon Tue Wed Thu Fri Sat
1------2------3------4------5------
6------7------8------9------10------11------12------
13------14------15------16------17------18------19------
20------21------22------23------24897252,22526590
27Search2882429Search30Search
Select Return Date   Change Departure Date

Return Date

2020/9
SunMonTueWedThuFriSat
1------2------3------4------5------
6------7------8------9------10------11------12------
13------14------15------16------17------18------19------
20------21------22------23------24------25------26------
27------28------29------30------
  Select Departure Date

Currency:US Dollar Loading Searching Fares Updating Fares

Departure Date
Return Date
Total Fares(Round Trip/Economy)

* Displayed fare(s) may differ from the actual search result

  • Tokyo-Urumqi
    Estimated Flight Time

    9Hours20Minutes
  • Tokyo-Urumqi
    Number of Operating Airlines

    15

Travel overseas on a budget! Get the best travel deals on skyticket!

Buy air tickets on skyticket and travel worldwide!

Visit popular spots worldwide! Fly on the lowest airfares from skyticket!

Search and book the cheapest air tickets on skyticket!!

Reserve your cheap air tickets on skyticket!

Look for cheap LCC air tickets on skyticket!

Get great deals on cheap air tickets between Tokyo and Urumqi!

Reserve your air tickets now to get the best deals on skyticket!

Travel the world's popular sites with budgeted airfares from skyticket!

Search for the best airfares on skyticket!

Book Budget Flights with skyticket / Cheap Airfares for Flights from
Narita-Urumqi Diwopu Airport

ステータス:
メッセージ1
メッセージ2
メッセージ3
メッセージ4
メッセージ5
メッセージ6
メッセージ7
メッセージ8
メッセージ9
メッセージ10
メッセージ11
メッセージ12
メッセージ13
メッセージ14