行きたい日付からパパッと検索!航空券の最安値が見つかる!

Tokyo
Narita International Airport

Istanbul
Istanbul Airport

 Istanbul Airport Narita 

Prices vary with departure date. Click on the calendar to select a departure date.

Departure Date

2021/1
Sun Mon Tue Wed Thu Fri Sat
1------2------
3------4------5------6------7------8------9------
10------11------12------13------14------15------16------
17------18------19------20------21------22------23------
24------25------26------27------28------29Search30919
31926
Select Return Date   Change Departure Date

Return Date

2021/1
SunMonTueWedThuFriSat
1------2------
3------4------5------6------7------8------9------
10------11------12------13------14------15------16------
17------18------19------20------21------22------23------
24------25------26------27------28------29------30------
31------
  Select Departure Date

Currency:US Dollar Loading Searching Fares Updating Fares

Departure Date
Return Date
Total Fares(Round Trip/Economy)

* Displayed fare(s) may differ from the actual search result

  • Tokyo-Istanbul
    Estimated Flight Time

    13Hours45Minutes
  • Tokyo-Istanbul
    Number of Operating Airlines

    35

Flying somewhere? skyticket is where to get the cheapest airfares!

Best deals on air tickets to popular resorts overseas!

Best round trip deals! Book cheap air tickets on skyticket!

Search on skyticket for air tickets between Tokyo and Istanbul.

Look no further! skyticket is where you can get the best deals on air tickets!

From low cost carriers (LCCs) to major airlines - find your suitable air tickets on skyticket.

Get the best deals! Cheap air tickets on skyticket!

Use skyticket for budget holiday.

Let skyticket take you around the world! Air tickets available from One-way, Round trip or Multi-stop!

Fly worldwide with skyticket for amazing travel deals!

Book Budget Flights with skyticket / Cheap Airfares for Flights from
Narita-Istanbul Airport

ステータス:
メッセージ1
メッセージ2
メッセージ3
メッセージ4
メッセージ5
メッセージ6
メッセージ7
メッセージ8
メッセージ9
メッセージ10
メッセージ11
メッセージ12
メッセージ13
メッセージ14