行きたい日付からパパッと検索!航空券の最安値が見つかる!

Tokyo
Narita International Airport

Kaohsiung
Kaohsiung International Airport

 Kaohsiung Airport Narita 

Prices vary with departure date. Click on the calendar to select a departure date.

Departure Date

2021/7
Sun Mon Tue Wed Thu Fri Sat
1------2------3------
4------5------6------7------8------9------10------
11------12------13------14------15------16------17------
18------19------20------21------22------23------24------
25------26------27------28------29------30Search31612
Select Return Date   Change Departure Date

Return Date

2021/7
SunMonTueWedThuFriSat
1------2------3------
4------5------6------7------8------9------10------
11------12------13------14------15------16------17------
18------19------20------21------22------23------24------
25------26------27------28------29------30------31------
  Select Departure Date

Currency:US Dollar Loading Searching Fares Updating Fares

Departure Date
Return Date
Total Fares(Round Trip/Economy)

* Displayed fare(s) may differ from the actual search result

  • Tokyo-Kaohsiung
    Estimated Flight Time

    4Hours30Minutes
  • Tokyo-Kaohsiung
    Number of Operating Airlines

    26

Cheap air tickets between Tokyo and Kaohsiung on skyticket!

Make your holiday a memorable one with budgeted and low airfares from skyticket!

Travel overseas with easy reservation! Get the best air tickets on skyticket!

Early bird low airfares from Tokyo to Kaohsiung!

Easy reservation for flights to Kaohsiung without being a member! Search cheap airfares from multiple airlines.

Make your reservation on skyticket in only 3 minutes!

From low cost carriers (LCCs) to major airlines - find the cheapest air tickets for routes from Tokyo to Kaohsiung on skyticket!

Get great deals on cheap air tickets between Tokyo and Kaohsiung!

Search for cheapest air tickets between Tokyo and Kaohsiung on skyticket!

Use skyticket for easy reservation and reasonable fares.

Book Budget Flights with skyticket / Cheap Airfares for Flights from
Narita-Kaohsiung Airport

ステータス:
メッセージ1
メッセージ2
メッセージ3
メッセージ4
メッセージ5
メッセージ6
メッセージ7
メッセージ8
メッセージ9
メッセージ10
メッセージ11
メッセージ12
メッセージ13
メッセージ14