行きたい日付からパパッと検索!航空券の最安値が見つかる!

Ningbo
Ningbo Lishe International Airport

Osaka
Kansai International Airport

 Kansai Airport Lishe 

Prices vary with departure date. Click on the calendar to select a departure date.

Departure Date

2019/9
Sun Mon Tue Wed Thu Fri Sat
1------2------3------4------5------6------7------
8------9------10------11------12------13------14------
15------16------17------18------19------20------21------
22------23------24------25------26------2754028531
2982630611
Select Return Date   Change Departure Date

Return Date

2019/9
SunMonTueWedThuFriSat
1------2------3------4------5------6------7------
8------9------10------11------12------13------14------
15------16------17------18------19------20------21------
22------23------24------25------26------27------28------
29------30------
  Select Departure Date

Currency:US Dollar Loading Searching Fares Updating Fares

Departure Date
Return Date
Total Fares(Round Trip/Economy)

* Displayed fare(s) may differ from the actual search result

  • Ningbo-Osaka
    Estimated Flight Time

    2Hours55Minutes
  • Ningbo-Osaka
    Number of Operating Airlines

    16

Reserve your air tickets now to get the best deals on skyticket!

Travel overseas with easy reservation! Get the best air tickets on skyticket!

Make your reservation on skyticket in only 3 minutes!

Easy reservation! Get the best deals on cheap air tickets!

Airfares from Ningbo to Osaka vary daily!

Savor mouthwatering cuisines, see panaromic views, enjoy your holiday at most with the lowest airfares from skyticket!

Buy cheap air tickets on skyticket and travel the world!

From Economy class to the luxurious First class, book now with skyticket for the Best Airfares!

Make your holiday a memorable one with budgeted and low airfares from skyticket!

Easy reservation with skyticket! Recommended low airfare searches!

Book Budget Flights with skyticket / Cheap Airfares for Flights from
Lishe-Kansai Airport

ステータス:
メッセージ1
メッセージ2
メッセージ3
メッセージ4
メッセージ5
メッセージ6
メッセージ7
メッセージ8
メッセージ9
メッセージ10
メッセージ11
メッセージ12
メッセージ13
メッセージ14