行きたい日付からパパッと検索!航空券の最安値が見つかる!

Toyama
Noto Airport

Seoul
Gimpo International Airport

 Gimpo Airport Noto 

Prices vary with departure date. Click on the calendar to select a departure date.

Departure Date

2019/10
Sun Mon Tue Wed Thu Fri Sat
1------2------3------4------5------
6------7------8------9------10------11------12------
13------14------15------16------17------18------19------
20------21------22------23------24------2550826489
2749828Search2948930Search31Search
Select Return Date   Change Departure Date

Return Date

2019/10
SunMonTueWedThuFriSat
1------2------3------4------5------
6------7------8------9------10------11------12------
13------14------15------16------17------18------19------
20------21------22------23------24------25------26------
27------28------29------30------31------
  Select Departure Date

Currency:US Dollar Loading Searching Fares Updating Fares

Departure Date
Return Date
Total Fares(Round Trip/Economy)

* Displayed fare(s) may differ from the actual search result

  • Toyama-Seoul
    Estimated Flight Time

    3Hours20Minutes
  • Toyama-Seoul
    Number of Operating Airlines

    3

Top Routes for ladies' group travels from Toyama to Seoul!!

Enjoy panoramic views of popular sites worldwide with the cheapest air tickets available from skyticket!

Search for the lowest price and the shortest route on skyticket!

Find the best deals for air tickets on skyticket!

Travel overseas to enjoy tempting gourmet with the cheapest airfares from skyticket!

Students Specials! Get your cheap air tickets from skyticket!

The cheapest air tickets from skyticket to fly to Asia for scrumptious Asian gourmet!

From Economy class to the luxurious First class, book now with skyticket for the Best Airfares!

Cheap air tickets between Toyama and Seoul on skyticket!

Travel worldwide to anywhere in Europe, Asia or America with the best airfares! Search now on skyticket!

Book Budget Flights with skyticket / Cheap Airfares for Flights from
Noto-Gimpo Airport

ステータス:
メッセージ1
メッセージ2
メッセージ3
メッセージ4
メッセージ5
メッセージ6
メッセージ7
メッセージ8
メッセージ9
メッセージ10
メッセージ11
メッセージ12
メッセージ13
メッセージ14