行きたい日付からパパッと検索!航空券の最安値が見つかる!

Pune
Pune Airport

Tokyo
Narita International Airport

 Narita Airport Pune 

Prices vary with departure date. Click on the calendar to select a departure date.

Departure Date

2019/9
Sun Mon Tue Wed Thu Fri Sat
1------2------3------4------5------6------7------
8------9------10------11------12------13------14------
15------16------17------18------19------20------21------
22------23------24------25------26------2790328907
2992030Search
Select Return Date   Change Departure Date

Return Date

2019/9
SunMonTueWedThuFriSat
1------2------3------4------5------6------7------
8------9------10------11------12------13------14------
15------16------17------18------19------20------21------
22------23------24------25------26------27------28------
29------30------
  Select Departure Date

Currency:US Dollar Loading Searching Fares Updating Fares

Departure Date
Return Date
Total Fares(Round Trip/Economy)

* Displayed fare(s) may differ from the actual search result

  • Pune-Tokyo
    Estimated Flight Time

    8Hours25Minutes
  • Pune-Tokyo
    Number of Operating Airlines

    6

Enjoy panoramic views of popular sites worldwide with the cheapest air tickets available from skyticket!

Look for cheap LCC air tickets on skyticket!

Easy reservation! Get the best deals on cheap air tickets!

Cheapest airfares from skyticket for family tours!

Use skyticket for budget holiday.

From low cost carriers (LCCs) to major airlines - find the cheapest air tickets on skyticket!

Search for popular airline tickets on skyticket!

Savor mouthwatering cuisines, see panaromic views, enjoy your holiday at most with the lowest airfares from skyticket!

Budget air tickets for direct flights and transit or stopover flights, all available on skyticket!

Travel overseas on a budget! Get the best travel deals on skyticket!

Book Budget Flights with skyticket / Cheap Airfares for Flights from
Pune-Narita Airport

ステータス:
メッセージ1
メッセージ2
メッセージ3
メッセージ4
メッセージ5
メッセージ6
メッセージ7
メッセージ8
メッセージ9
メッセージ10
メッセージ11
メッセージ12
メッセージ13
メッセージ14