行きたい日付からパパッと検索!航空券の最安値が見つかる!

Qingdao
Qingdao Liuting International Airport

Seoul
Incheon International Airport

 Incheon Airport Liuting 

Prices vary with departure date. Click on the calendar to select a departure date.

Departure Date

2019/10
Sun Mon Tue Wed Thu Fri Sat
1------2------3------4------5------
6------7------8------9------10------11------12------
13------14------15------16------17------18------19------
20------21------22------23215242072520726207
2722628215292153021431211
Select Return Date   Change Departure Date

Return Date

2019/10
SunMonTueWedThuFriSat
1------2------3------4------5------
6------7------8------9------10------11------12------
13------14------15------16------17------18------19------
20------21------22------23------24------25------26------
27------28------29------30------31------
  Select Departure Date

Currency:US Dollar Loading Searching Fares Updating Fares

Departure Date
Return Date
Total Fares(Round Trip/Economy)

* Displayed fare(s) may differ from the actual search result

  • Qingdao-Seoul
    Estimated Flight Time

    1Hours15Minutes
  • Qingdao-Seoul
    Number of Operating Airlines

    16

Top Routes for ladies' group travels from Qingdao to Seoul!!

The cheapest air tickets from skyticket to fly to Asia for scrumptious Asian gourmet!

Flying somewhere? skyticket is where to get the cheapest airfares!

Travel overseas to enjoy tempting gourmet with the cheapest airfares from skyticket!

Students Specials! Get your cheap air tickets from skyticket!

Get the lowest airfares for routes from Qingdao toSeoul!

Budget air tickets for direct flights and transit or stopover flights, all available on skyticket!

Easy bookings on skyticket for budget travels!

Cheap air tickets from Qingdao to Seoul on skyticket!

Cheapest airfares from skyticket for flight route Qingdao to Seoul!

Book Budget Flights with skyticket / Cheap Airfares for Flights from
Liuting-Incheon Airport

ステータス:
メッセージ1
メッセージ2
メッセージ3
メッセージ4
メッセージ5
メッセージ6
メッセージ7
メッセージ8
メッセージ9
メッセージ10
メッセージ11
メッセージ12
メッセージ13
メッセージ14