行きたい日付からパパッと検索!航空券の最安値が見つかる!

Qingdao
Qingdao Liuting International Airport

Vladivostok
Vladivostok International Airport

 Vladivostok Airport Liuting 

Prices vary with departure date. Click on the calendar to select a departure date.

Departure Date

2019/10
Sun Mon Tue Wed Thu Fri Sat
1------2------3------4------5------
6------7------8------9------10------11------12------
13------14------15------16------17------18------19------
20------21------22------23------24------2569426Search
27Search28Search29Search3077731Search
Select Return Date   Change Departure Date

Return Date

2019/10
SunMonTueWedThuFriSat
1------2------3------4------5------
6------7------8------9------10------11------12------
13------14------15------16------17------18------19------
20------21------22------23------24------25------26------
27------28------29------30------31------
  Select Departure Date

Currency:US Dollar Loading Searching Fares Updating Fares

Departure Date
Return Date
Total Fares(Round Trip/Economy)

* Displayed fare(s) may differ from the actual search result

  • Qingdao-Vladivostok
    Estimated Flight Time

    3Hours15Minutes
  • Qingdao-Vladivostok
    Number of Operating Airlines

    8

Cheapest airfares for overseas trips on skyticket!

Easy reservation for the cheapest air tickets on skyticket!

Traval the world with the lowest airfares from skyticket!

Cheap air tickets between Qingdao and Vladivostok on skyticket!

Cheapest airfares from skyticket for flight route Qingdao to Vladivostok!

Search on skyticket for air tickets between Qingdao and Vladivostok.

Reserve your air tickets now to get the best deals on skyticket!

Find the best deals for air tickets on skyticket!

Easy reservation and cheapest tickets! Get the best travel deals on skyticket!

Cheapest airfares from skyticket for family tours!

Book Budget Flights with skyticket / Cheap Airfares for Flights from
Liuting-Vladivostok Airport

ステータス:
メッセージ1
メッセージ2
メッセージ3
メッセージ4
メッセージ5
メッセージ6
メッセージ7
メッセージ8
メッセージ9
メッセージ10
メッセージ11
メッセージ12
メッセージ13
メッセージ14