行きたい日付からパパッと検索!航空券の最安値が見つかる!

San Francisco
San Francisco International Airport

Seoul
Gimpo International Airport

 Gimpo Airport San Francisco 

Prices vary with departure date. Click on the calendar to select a departure date.

Departure Date

2020/1
Sun Mon Tue Wed Thu Fri Sat
1------2------3------4------
5------6------7------8------9------10------11------
12------13------14------15------16------17------18------
19------20------21------22------23------24------25977
26614273,819287772994930756311,562
Select Return Date   Change Departure Date

Return Date

2020/1
SunMonTueWedThuFriSat
1------2------3------4------
5------6------7------8------9------10------11------
12------13------14------15------16------17------18------
19------20------21------22------23------24------25------
26------27------28------29------30------31------
  Select Departure Date

Currency:US Dollar Loading Searching Fares Updating Fares

Departure Date
Return Date
Total Fares(Round Trip/Economy)

* Displayed fare(s) may differ from the actual search result

  • San Francisco-Seoul
    Estimated Flight Time

    13Hours50Minutes
  • San Francisco-Seoul
    Number of Operating Airlines

    12

Top Routes for ladies' group travels from San Francisco to Seoul!!

Students Specials! Get your cheap air tickets from skyticket!

The cheapest air tickets from skyticket to fly to Asia for scrumptious Asian gourmet!

Make your reservation on skyticket in only 3 minutes!

Reserve your cheap air tickets on skyticket!

Travel overseas to enjoy tempting gourmet with the cheapest airfares from skyticket!

Book the cheapest air tickets on skyticket to travel from San Francisco to Seoul.

Travel the world's popular sites with budgeted airfares from skyticket!

Let skyticket take you around the world! Air tickets available from One-way, Round trip or Multi-stop!

Search and book the cheapest air tickets on skyticket!!

Book Budget Flights with skyticket / Cheap Airfares for Flights from
San Francisco-Gimpo Airport

ステータス:
メッセージ1
メッセージ2
メッセージ3
メッセージ4
メッセージ5
メッセージ6
メッセージ7
メッセージ8
メッセージ9
メッセージ10
メッセージ11
メッセージ12
メッセージ13
メッセージ14