行きたい日付からパパッと検索!航空券の最安値が見つかる!

Singapore
Singapore Changi Airport

Taipei
Taoyuan International Airport

 Taoyuan Airport Changi 

Prices vary with departure date. Click on the calendar to select a departure date.

Departure Date

2019/10
Sun Mon Tue Wed Thu Fri Sat
1------2------3------4------5------
6------7------8------9------10------11------12------
13------14------15------16------17------18------19------
20------21------22------23354242352529726334
2726428306293063030631306
Select Return Date   Change Departure Date

Return Date

2019/10
SunMonTueWedThuFriSat
1------2------3------4------5------
6------7------8------9------10------11------12------
13------14------15------16------17------18------19------
20------21------22------23------24------25------26------
27------28------29------30------31------
  Select Departure Date

Currency:US Dollar Loading Searching Fares Updating Fares

Departure Date
Return Date
Total Fares(Round Trip/Economy)

* Displayed fare(s) may differ from the actual search result

  • Singapore-Taipei
    Estimated Flight Time

    4Hours30Minutes
  • Singapore-Taipei
    Number of Operating Airlines

    28

Enjoy breathtaking views of travel spots with easy reservation on skyticket!

Cheap and reasonable air tickets from skyticket!

Enjoy student trips with cheap air tickets from skyticket!

Enjoy panoramic views of popular sites worldwide with the cheapest air tickets available from skyticket!

Get the best deals! Cheap air tickets on skyticket!

Fly worldwide with skyticket for amazing travel deals!

Solo travelers! The best airfares are available here on skyticket!

Couple Travels! Get the lowest air tickets from skyticket!

Let skyticket take you around the world! Air tickets available from One-way, Round trip or Multi-stop!

Search flights from any countries worldwide on skyticket!

Book Budget Flights with skyticket / Cheap Airfares for Flights from
Changi-Taoyuan Airport

ステータス:
メッセージ1
メッセージ2
メッセージ3
メッセージ4
メッセージ5
メッセージ6
メッセージ7
メッセージ8
メッセージ9
メッセージ10
メッセージ11
メッセージ12
メッセージ13
メッセージ14