行きたい日付からパパッと検索!航空券の最安値が見つかる!

Singapore
Singapore Changi Airport

Hong Kong
Hong Kong International Airport

 Hong Kong Airport Changi 

Prices vary with departure date. Click on the calendar to select a departure date.

Departure Date

2019/8
Sun Mon Tue Wed Thu Fri Sat
1------2------3------
4------5------6------7------8------9------10------
11------12------13------14------15------16------17------
18------19------20------21------22------2322724204
25256262692719028204292133027631276
Select Return Date   Change Departure Date

Return Date

2019/8
SunMonTueWedThuFriSat
1------2------3------
4------5------6------7------8------9------10------
11------12------13------14------15------16------17------
18------19------20------21------22------23------24------
25------26------27------28------29------30------31------
  Select Departure Date

Currency:US Dollar Loading Searching Fares Updating Fares

Departure Date
Return Date
Total Fares(Round Trip/Economy)

* Displayed fare(s) may differ from the actual search result

  • Singapore-Hong Kong
    Estimated Flight Time

    3Hours45Minutes
  • Singapore-Hong Kong
    Number of Operating Airlines

    23

Students! Find the lowest airfares for overseas trips on skyticket!

Indulge in savory cuisines worldwide by flying with budget airfares from skyticket!

Make your reservation on skyticket in only 3 minutes!

From low cost carriers (LCCs) to major airlines - find budget airfares on skyticket!

Travel overseas with easy reservation! Get the best air tickets on skyticket!

Easy reservation on skyticket! Fly on the lowest airfares available!

Cheapest airfares from skyticket for family tours!

Travel overseas with affordable air tickets on popular airlines!

Reserve your cheap air tickets on skyticket!

Search and book the cheapest air tickets on skyticket!!

Book Budget Flights with skyticket / Cheap Airfares for Flights from
Changi-Hong Kong Airport

ステータス:
メッセージ1
メッセージ2
メッセージ3
メッセージ4
メッセージ5
メッセージ6
メッセージ7
メッセージ8
メッセージ9
メッセージ10
メッセージ11
メッセージ12
メッセージ13
メッセージ14