行きたい日付からパパッと検索!航空券の最安値が見つかる!

Taipei
Taipei Songshan Airport

Tokyo
Haneda Airport

 Haneda Airport Songshan 

Prices vary with departure date. Click on the calendar to select a departure date.

Departure Date

2021/7
Sun Mon Tue Wed Thu Fri Sat
1------2------3------
4------5------6------7------8------9------10------
11------12------13------14------15------16------17------
18------19------20------21------22------23------24------
25------26------27------28------29------30------31622
Select Return Date   Change Departure Date

Return Date

2021/7
SunMonTueWedThuFriSat
1------2------3------
4------5------6------7------8------9------10------
11------12------13------14------15------16------17------
18------19------20------21------22------23------24------
25------26------27------28------29------30------31------
  Select Departure Date

Currency:US Dollar Loading Searching Fares Updating Fares

Departure Date
Return Date
Total Fares(Round Trip/Economy)

* Displayed fare(s) may differ from the actual search result

  • Taipei-Tokyo
    Estimated Flight Time

    3Hours10Minutes
  • Taipei-Tokyo
    Number of Operating Airlines

    8

Search and book your flights on skyticket's hassle-free platform!

Travel to any destination using skyticket's easy booking platform!

Great deals for overseas travels with the cheap air tickets from skyticket!

Easy reservation on skyticket for budgeted airfares!

Find the best deals for air tickets on skyticket!

Easy reservation and cheapest tickets! Get the best travel deals on skyticket!

skyticket for easy and convenient reservation of cheap tickets!

Reserve your cheap air tickets on skyticket!

Budget air tickets for direct flights and transit or stopover flights, all available on skyticket!

Cheap and reasonable airfares for trips abroad! Get the best deals on skyticket!

Book Budget Flights with skyticket / Cheap Airfares for Flights from
Songshan-Haneda Airport

ステータス:
メッセージ1
メッセージ2
メッセージ3
メッセージ4
メッセージ5
メッセージ6
メッセージ7
メッセージ8
メッセージ9
メッセージ10
メッセージ11
メッセージ12
メッセージ13
メッセージ14