行きたい日付からパパッと検索!航空券の最安値が見つかる!

Taipei
Taipei Songshan Airport

Tokyo
Narita International Airport

 Narita Airport Songshan 

Prices vary with departure date. Click on the calendar to select a departure date.

Departure Date

2021/7
Sun Mon Tue Wed Thu Fri Sat
1------2------3------
4------5------6------7------8------9------10------
11------12------13------14------15------16------17------
18------19------20------21------22------23------24------
25------26------27------28------29------30Search31862
Select Return Date   Change Departure Date

Return Date

2021/7
SunMonTueWedThuFriSat
1------2------3------
4------5------6------7------8------9------10------
11------12------13------14------15------16------17------
18------19------20------21------22------23------24------
25------26------27------28------29------30------31------
  Select Departure Date

Currency:US Dollar Loading Searching Fares Updating Fares

Departure Date
Return Date
Total Fares(Round Trip/Economy)

* Displayed fare(s) may differ from the actual search result

  • Taipei-Tokyo
    Estimated Flight Time

    3Hours10Minutes
  • Taipei-Tokyo
    Number of Operating Airlines

    10

Easy reservation! Get the best deals on cheap air tickets!

Search and book your flights on skyticket's hassle-free platform!

Search skyticket to find the lowest airfares - from LCCs to the most popular airlines!

Travel overseas with skyticket's budgeted airfares!

Early flights and red-eye flights on skyticket.

Great deals for overseas travels with the cheap air tickets from skyticket!

From low cost carriers (LCCs) to major airlines - find the cheapest air tickets for routes from Taipei to Tokyo on skyticket!

Flying somewhere? skyticket is where to get the cheapest airfares!

Book the cheapest air tickets on skyticket to travel from Taipei to Tokyo.

Traval the world with the lowest airfares from skyticket!

Book Budget Flights with skyticket / Cheap Airfares for Flights from
Songshan-Narita Airport

ステータス:
メッセージ1
メッセージ2
メッセージ3
メッセージ4
メッセージ5
メッセージ6
メッセージ7
メッセージ8
メッセージ9
メッセージ10
メッセージ11
メッセージ12
メッセージ13
メッセージ14