行きたい日付からパパッと検索!航空券の最安値が見つかる!

Taiyuan
Taiyuan Wusu International Airport

Seoul
Incheon International Airport

 Incheon Airport Wusu 

Prices vary with departure date. Click on the calendar to select a departure date.

Departure Date

2019/9
Sun Mon Tue Wed Thu Fri Sat
1------2------3------4------5------6------7------
8------9------10------11------12------13------14------
15------16------17------18------19------20------21------
22------23------24------25------26------27------28296
2945030441
Select Return Date   Change Departure Date

Return Date

2019/9
SunMonTueWedThuFriSat
1------2------3------4------5------6------7------
8------9------10------11------12------13------14------
15------16------17------18------19------20------21------
22------23------24------25------26------27------28------
29------30------
  Select Departure Date

Currency:US Dollar Loading Searching Fares Updating Fares

Departure Date
Return Date
Total Fares(Round Trip/Economy)

* Displayed fare(s) may differ from the actual search result

  • Taiyuan-Seoul
    Estimated Flight Time

    2Hours50Minutes
  • Taiyuan-Seoul
    Number of Operating Airlines

    12

Top Routes for ladies' group travels from Taiyuan to Seoul!!

Travel overseas on a budget! Get the best travel deals on skyticket!

Make your holiday a memorable one with budgeted and low airfares from skyticket!

Great deals for budgeted airfares from Taiyuan to Seoul on skyticket!

The cheapest air tickets from skyticket to fly to Asia for scrumptious Asian gourmet!

Cheapest airfares for overseas trips on skyticket!

Budget air tickets for direct flights and transit or stopover flights, all available on skyticket!

Enjoy your holiday with the cheapest air tickets from skyticket!

Students Specials! Get your cheap air tickets from skyticket!

Savor mouthwatering cuisines, see panaromic views, enjoy your holiday at most with the lowest airfares from skyticket!

Book Budget Flights with skyticket / Cheap Airfares for Flights from
Wusu-Incheon Airport

ステータス:
メッセージ1
メッセージ2
メッセージ3
メッセージ4
メッセージ5
メッセージ6
メッセージ7
メッセージ8
メッセージ9
メッセージ10
メッセージ11
メッセージ12
メッセージ13
メッセージ14