行きたい日付からパパッと検索!航空券の最安値が見つかる!

Taiyuan
Taiyuan Wusu International Airport

Osaka
Kansai International Airport

 Kansai Airport Wusu 

Prices vary with departure date. Click on the calendar to select a departure date.

Departure Date

2019/9
Sun Mon Tue Wed Thu Fri Sat
1------2------3------4------5------6------7------
8------9------10------11------12------13------14------
15------16------17------18------19------20------21Search
22Search2337324Search254202648527Search28Search
29665301,297
Select Return Date   Change Departure Date

Return Date

2019/9
SunMonTueWedThuFriSat
1------2------3------4------5------6------7------
8------9------10------11------12------13------14------
15------16------17------18------19------20------21------
22------23------24------25------26------27------28------
29------30------
  Select Departure Date

Currency:US Dollar Loading Searching Fares Updating Fares

Departure Date
Return Date
Total Fares(Round Trip/Economy)

* Displayed fare(s) may differ from the actual search result

  • Taiyuan-Osaka
    Estimated Flight Time

    4Hours10Minutes
  • Taiyuan-Osaka
    Number of Operating Airlines

    14

Enjoy your holiday with the cheapest air tickets from skyticket!

Cheapest airfares from skyticket for family tours!

Book air tickets on skyticket and get the best travel deals!

Get the best deals! Cheap air tickets on skyticket!

Cheap air tickets between Taiyuan and Osaka on skyticket!

Buy cheap air tickets on skyticket and travel the world!

Early bird low airfares from Taiyuan to Osaka!

Make your reservation on skyticket in only 3 minutes!

Travel overseas with skyticket's budgeted airfares!

Travel to any destination using skyticket's easy booking platform!

Book Budget Flights with skyticket / Cheap Airfares for Flights from
Wusu-Kansai Airport

ステータス:
メッセージ1
メッセージ2
メッセージ3
メッセージ4
メッセージ5
メッセージ6
メッセージ7
メッセージ8
メッセージ9
メッセージ10
メッセージ11
メッセージ12
メッセージ13
メッセージ14