行きたい日付からパパッと検索!航空券の最安値が見つかる!

Toyama
Toyama Airport

Taipei
Taoyuan International Airport

 Taoyuan Airport Toyama 

Prices vary with departure date. Click on the calendar to select a departure date.

Departure Date

2019/9
Sun Mon Tue Wed Thu Fri Sat
1------2------3------4------5------6------7------
8------9------10------11------12------13------14------
15------16------17------18------19------20------21------
22------23------24------25------26------27------28636
2940530321
Select Return Date   Change Departure Date

Return Date

2019/9
SunMonTueWedThuFriSat
1------2------3------4------5------6------7------
8------9------10------11------12------13------14------
15------16------17------18------19------20------21------
22------23------24------25------26------27------28------
29------30------
  Select Departure Date

Currency:US Dollar Loading Searching Fares Updating Fares

Departure Date
Return Date
Total Fares(Round Trip/Economy)

* Displayed fare(s) may differ from the actual search result

  • Toyama-Taipei
    Estimated Flight Time

    5Hours15Minutes
  • Toyama-Taipei
    Number of Operating Airlines

    10

Enjoy breathtaking views of travel spots with easy reservation on skyticket!

Search skyticket to find the lowest airfares - from LCCs to the most popular airlines!

Solo travelers! The best airfares are available here on skyticket!

Make your reservation on skyticket in only 3 minutes!

Couple Travels! Get the lowest air tickets from skyticket!

Enjoy student trips with cheap air tickets from skyticket!

Make your reservation on skyticket in only 3 minutes!

Search flights from any countries worldwide on skyticket!

Airfares from Toyama to Taipei vary daily!

Get great deals on the lowest airfares from skyticket!

Book Budget Flights with skyticket / Cheap Airfares for Flights from
Toyama-Taoyuan Airport

ステータス:
メッセージ1
メッセージ2
メッセージ3
メッセージ4
メッセージ5
メッセージ6
メッセージ7
メッセージ8
メッセージ9
メッセージ10
メッセージ11
メッセージ12
メッセージ13
メッセージ14