行きたい日付からパパッと検索!航空券の最安値が見つかる!

Vancouver
Vancouver International Airport

Kunming
Kunming Changshui International Airport

 Kunming Changshui Airport Vancouver 

Prices vary with departure date. Click on the calendar to select a departure date.

Departure Date

2024/5
Sun Mon Tue Wed Thu Fri Sat
1------2------3------4------
5------6------7------8------9------10------11------
12------13------14------15------16------17------18------
19------20------21------22------23------24------25------
26------27------28------292,137302,139312,137
Select Return Date   Change Departure Date

Return Date

2024/5
SunMonTueWedThuFriSat
1------2------3------4------
5------6------7------8------9------10------11------
12------13------14------15------16------17------18------
19------20------21------22------23------24------25------
26------27------28------29------30------31------
  Select Departure Date

Currency:US Dollar Loading Searching Fares Updating Fares

Departure Date
Return Date
Total Fares(Round-Trip/Economy)

* Displayed fare(s) may differ from the actual search result

  • Vancouver-Kunming Changshui Airport

    May Lowest Airfares

    USD2,137


    The airfare displayed above is for Klm Royal Dutch Airlines


    Set calendar for this month
  • Vancouver-Kunming Changshui Airport

    June Lowest Airfares -----
  • Vancouver-Kunming Changshui Airport

    July Lowest Airfares -----
  • Vancouver-Kunming Changshui Airport

    August Lowest Airfares -----
  • Vancouver-Kunming Changshui Airport

    September Lowest Airfares -----
  • Vancouver-Kunming
    Estimated Flight Time

    24 Hours 40 Minutes
  • Vancouver-Kunming
    Number of Operating Airlines

    15
  • Other Destinations from:Vancouver

    * Fares vary in accordance to seat availability
  • Other Departures to: Kunming

    * Fares vary in accordance to seat availability
ステータス:
メッセージ1
メッセージ2
メッセージ3
メッセージ4
メッセージ5
メッセージ6
メッセージ7
メッセージ8
メッセージ9
メッセージ10
メッセージ11
メッセージ12
メッセージ13
メッセージ14