行きたい日付からパパッと検索!航空券の最安値が見つかる!

Vancouver
Vancouver International Airport

Yellowknife
Yellowknife Airport

 Yellowknife Airport Vancouver 

Prices vary with departure date. Click on the calendar to select a departure date.

Departure Date

2019/6
Sun Mon Tue Wed Thu Fri Sat
1------
2------3------4------5------6------7------8------
9------10------11------12------13------14------15------
16------17------18------19------20------21------22------
23------24------25------26------274742865229664
30460
Select Return Date   Change Departure Date

Return Date

2019/6
SunMonTueWedThuFriSat
1------
2------3------4------5------6------7------8------
9------10------11------12------13------14------15------
16------17------18------19------20------21------22------
23------24------25------26------27------28------29------
30------
  Select Departure Date

Currency:US dollar Loading Searching Fares Updating Fares

Departure Date
Return Date
Total Fares(Round Trip/Economy)

* Displayed fare(s) may differ from the actual search result

  • Vancouver-Yellowknife
    Estimated Flight Time

    3Hours22Minutes
  • Vancouver-Yellowknife
    Number of Operating Airlines

    3

Travel overseas with easy reservation! Get the best air tickets on skyticket!

Great deals for overseas travels with the cheap air tickets from skyticket!

Cheapest airfares from skyticket for family tours!

Online reservation available 24-hours a day from skyticket! Search and book your flights to Yellowknife Airport now!

Look for cheap LCC air tickets on skyticket!

Great deals for budgeted airfares from Vancouver to Yellowknife on skyticket!

Search for the best airfares on skyticket!

Airfares from Vancouver to Yellowknife vary daily!

Easy reservation with skyticket! Recommended low airfare searches!

Search flights from any countries worldwide on skyticket!

Book Budget Flights with skyticket / Cheap Airfares for Flights from
Vancouver-Yellowknife Airport

ステータス:
メッセージ1
メッセージ2
メッセージ3
メッセージ4
メッセージ5
メッセージ6
メッセージ7
メッセージ8
メッセージ9
メッセージ10
メッセージ11
メッセージ12
メッセージ13
メッセージ14