行きたい日付からパパッと検索!航空券の最安値が見つかる!

yamagata
Yamagata Airport

Seoul
Gimpo International Airport

 Gimpo Airport Yamagata 

Prices vary with departure date. Click on the calendar to select a departure date.

Departure Date

2019/9
Sun Mon Tue Wed Thu Fri Sat
1------2------3------4------5------6------7------
8------9------10------11------12------13------14------
15------16------17------18------19------20------21------
22------23------24------25------26------27------28440
29Search30449
Select Return Date   Change Departure Date

Return Date

2019/9
SunMonTueWedThuFriSat
1------2------3------4------5------6------7------
8------9------10------11------12------13------14------
15------16------17------18------19------20------21------
22------23------24------25------26------27------28------
29------30------
  Select Departure Date

Currency:US Dollar Loading Searching Fares Updating Fares

Departure Date
Return Date
Total Fares(Round Trip/Economy)

* Displayed fare(s) may differ from the actual search result

  • yamagata-Seoul
    Estimated Flight Time

    3Hours05Minutes
  • yamagata-Seoul
    Number of Operating Airlines

    4

Top Routes for ladies' group travels from yamagata to Seoul!!

Students Specials! Get your cheap air tickets from skyticket!

Traval the world with the lowest airfares from skyticket!

Easy reservation for flights to Seoul without being a member! Search cheap airfares from multiple airlines.

Travel overseas to enjoy tempting gourmet with the cheapest airfares from skyticket!

Search for popular airline tickets on skyticket!

Fast and easy booking for cheap air tickets!

The cheapest air tickets from skyticket to fly to Asia for scrumptious Asian gourmet!

Airfares from yamagata to Seoul vary daily!

Book Budget Flights with skyticket / Cheap Airfares for Flights from
Yamagata-Gimpo Airport

ステータス:
メッセージ1
メッセージ2
メッセージ3
メッセージ4
メッセージ5
メッセージ6
メッセージ7
メッセージ8
メッセージ9
メッセージ10
メッセージ11
メッセージ12
メッセージ13
メッセージ14