行きたい日付からパパッと検索!航空券の最安値が見つかる!

Chicago
O'Hare International Airport

Chennai (Madras)
Chennai International Airport

 Chennai Airport O'Hare 

Prices vary with departure date. Click on the calendar to select a departure date.

Departure Date

2020/9
Sun Mon Tue Wed Thu Fri Sat
1------2------3------4------5------
6------7------8------9------10------11------12------
13------14------15------16------17------18------19------
20------21------22------23------24------25Search26Search
27Search28Search29Search30Search
Select Return Date   Change Departure Date

Return Date

2020/9
SunMonTueWedThuFriSat
1------2------3------4------5------
6------7------8------9------10------11------12------
13------14------15------16------17------18------19------
20------21------22------23------24------25------26------
27------28------29------30------
  Select Departure Date

Currency:US Dollar Loading Searching Fares Updating Fares

Departure Date
Return Date
Total Fares(Round Trip/Economy)

* Displayed fare(s) may differ from the actual search result

  • O'Hare-Chennai Airport

    September Lowest Airfares -----
  • O'Hare-Chennai Airport

    October Lowest Airfares -----
  • O'Hare-Chennai Airport

    November Lowest Airfares -----
  • O'Hare-Chennai Airport

    December Lowest Airfares -----
  • O'Hare-Chennai Airport

    January Lowest Airfares -----
  • Chicago-Chennai (Madras)
    Estimated Flight Time

    17Hours15Minutes
  • Chicago-Chennai (Madras)
    Number of Operating Airlines

    5
  • Other Destinations from:Chicago

    * Fares vary in accordance to seat availability
  • Other Departures to: Chennai (Madras)

    * Fares vary in accordance to seat availability

Book Budget Flights with skyticket / Cheap Airfares for Flights from
O'Hare-Chennai Airport

ステータス:
メッセージ1
メッセージ2
メッセージ3
メッセージ4
メッセージ5
メッセージ6
メッセージ7
メッセージ8
メッセージ9
メッセージ10
メッセージ11
メッセージ12
メッセージ13
メッセージ14