行きたい日付からパパッと検索!航空券の最安値が見つかる!

New York
LaGuardia Airport

Da Nang
Da Nang International Airport

 Da Nang Airport LaGuardia 

Prices vary with departure date. Click on the calendar to select a departure date.

Departure Date

2024/4
Sun Mon Tue Wed Thu Fri Sat
1------2------3------4------5------6------
7------8------9------10------11------12------13------
14------15------16------17------18Search19Search20Search
21Search22Search23Search24Search25Search26Search27Search
28Search29Search30Search
Select Return Date   Change Departure Date

Return Date

2024/4
SunMonTueWedThuFriSat
1------2------3------4------5------6------
7------8------9------10------11------12------13------
14------15------16------17------18------19------20------
21------22------23------24------25------26------27------
28------29------30------
  Select Departure Date

Currency:US Dollar Loading Searching Fares Updating Fares

Departure Date
Return Date
Total Fares(Round-Trip/Economy)

* Displayed fare(s) may differ from the actual search result

  • LaGuardia-Da Nang Airport

    April Lowest Airfares -----
  • LaGuardia-Da Nang Airport

    May Lowest Airfares -----
  • LaGuardia-Da Nang Airport

    June Lowest Airfares

    USD1,542


    The airfare displayed above is for Delta Air Lines


    Set calendar for this month
  • LaGuardia-Da Nang Airport

    July Lowest Airfares -----
  • LaGuardia-Da Nang Airport

    August Lowest Airfares -----
  • New York-Da Nang
    Estimated Flight Time

    20 Hours 37 Minutes
  • New York-Da Nang
    Number of Operating Airlines

    5
  • Other Destinations from:New York

    * Fares vary in accordance to seat availability
  • Other Departures to: Da Nang

    John F. Kennedy Airport-Da Nang(DAD)
    USD1,421〜
    * Fares vary in accordance to seat availability
ステータス:
メッセージ1
メッセージ2
メッセージ3
メッセージ4
メッセージ5
メッセージ6
メッセージ7
メッセージ8
メッセージ9
メッセージ10
メッセージ11
メッセージ12
メッセージ13
メッセージ14