行きたい日付からパパッと検索!航空券の最安値が見つかる!

Taiyuan
Taiyuan Wusu International Airport

Okinawa
Naha Airport

 Naha Airport Wusu 

Prices vary with departure date. Click on the calendar to select a departure date.

Departure Date

2019/9
Sun Mon Tue Wed Thu Fri Sat
1------2------3------4------5------6------7------
8------9------10------11------12------13------14------
15------16------17------18------19------20------21------
22------23------24------25------26------27------28945
291,047301,157
Select Return Date   Change Departure Date

Return Date

2019/9
SunMonTueWedThuFriSat
1------2------3------4------5------6------7------
8------9------10------11------12------13------14------
15------16------17------18------19------20------21------
22------23------24------25------26------27------28------
29------30------
  Select Departure Date

Currency:US Dollar Loading Searching Fares Updating Fares

Departure Date
Return Date
Total Fares(Round Trip/Economy)

* Displayed fare(s) may differ from the actual search result

  • Taiyuan-Okinawa
    Estimated Flight Time

    4Hours15Minutes
  • Taiyuan-Okinawa
    Number of Operating Airlines

    3

Travel overseas with skyticket's budgeted airfares!

Booking made easy on skyticket for cheap air tickets and budgeted airfares!

Travel the world's popular sites with budgeted airfares from skyticket!

Cheapest airfares from skyticket for flight route Taiyuan to Okinawa!

Get the lowest airfares for routes from Taiyuan toOkinawa!

Fly worldwide with skyticket for amazing travel deals!

Cheap and reasonable airfares for trips abroad! Get the best deals on skyticket!

From low cost carriers (LCCs) to major airlines - find the cheapest air tickets on skyticket!

From low cost carriers (LCCs) to major airlines - find your suitable air tickets on skyticket.

Best deals on air tickets to popular resorts overseas!

Book Budget Flights with skyticket / Cheap Airfares for Flights from
Wusu-Naha Airport

ステータス:
メッセージ1
メッセージ2
メッセージ3
メッセージ4
メッセージ5
メッセージ6
メッセージ7
メッセージ8
メッセージ9
メッセージ10
メッセージ11
メッセージ12
メッセージ13
メッセージ14