行きたい日付からパパッと検索!航空券の最安値が見つかる!

Almaty
Almaty International Airport

Dushanbe
Dushanbe International Airport

 Dushanbe Airport Almaty 

Prices vary with departure date. Click on the calendar to select a departure date.

Departure Date

2020/1
Sun Mon Tue Wed Thu Fri Sat
1------2------3------4------
5------6------7------8------9------10------11------
12------13------14------15------16------17------18------
19------20------21------22------23------24------25Search
2633027Search28Search29Search30Search31224
Select Return Date   Change Departure Date

Return Date

2020/1
SunMonTueWedThuFriSat
1------2------3------4------
5------6------7------8------9------10------11------
12------13------14------15------16------17------18------
19------20------21------22------23------24------25------
26------27------28------29------30------31------
  Select Departure Date

Currency:US Dollar Loading Searching Fares Updating Fares

Departure Date
Return Date
Total Fares(Round Trip/Economy)

* Displayed fare(s) may differ from the actual search result

  • Almaty-Dushanbe
    Estimated Flight Time

    2Hours05Minutes
  • Almaty-Dushanbe
    Number of Operating Airlines

    8

Travel the world's popular sites with budgeted airfares from skyticket!

Easy reservation and cheapest tickets! Get the best travel deals on skyticket!

Travel overseas with easy reservation! Get the best air tickets on skyticket!

Budgeted airfares are up for grabs on skyticket!

Travel overseas with affordable air tickets on popular airlines!

Look no further! skyticket is where you can get the best deals on air tickets!

Buy cheap air tickets on skyticket and travel the world!

Cheap and reasonable air tickets from skyticket!

Cheapest airfares from skyticket for flight route Almaty to Dushanbe!

Flying somewhere? skyticket is where to get the cheapest airfares!

Book Budget Flights with skyticket / Cheap Airfares for Flights from
Almaty-Dushanbe Airport

ステータス:
メッセージ1
メッセージ2
メッセージ3
メッセージ4
メッセージ5
メッセージ6
メッセージ7
メッセージ8
メッセージ9
メッセージ10
メッセージ11
メッセージ12
メッセージ13
メッセージ14