行きたい日付からパパッと検索!航空券の最安値が見つかる!

London (UK)
Heathrow Airport

Pisa
Pisa International Airport

 Pisa Airport Heathrow 

Prices vary with departure date. Click on the calendar to select a departure date.

Departure Date

2019/8
Sun Mon Tue Wed Thu Fri Sat
1------2------3------
4------5------6------7------8------9------10------
11------12------13------14------15------16------17------
18------19------20------21------22------23------24------
25------26------27------28------29------3032931345
Select Return Date   Change Departure Date

Return Date

2019/8
SunMonTueWedThuFriSat
1------2------3------
4------5------6------7------8------9------10------
11------12------13------14------15------16------17------
18------19------20------21------22------23------24------
25------26------27------28------29------30------31------
  Select Departure Date

Currency:US Dollar Loading Searching Fares Updating Fares

Departure Date
Return Date
Total Fares(Round Trip/Economy)

* Displayed fare(s) may differ from the actual search result

  • Heathrow-Pisa Airport

    August Lowest Airfares

    USD329


    The airfare displayed above is for Klm Royal Dutch Airlines


    Set calendar for this month
  • Heathrow-Pisa Airport

    September Lowest Airfares

    USD156


    The airfare displayed above is for British Airways


    Set calendar for this month
  • London (UK)-Pisa
    Estimated Flight Time

    2Hours15Minutes
  • London (UK)-Pisa
    Number of Operating Airlines

    10

Fast and easy booking for cheap air tickets!

Best round trip deals! Book cheap air tickets on skyticket!

Easy reservation on skyticket for budgeted airfares!

Make your reservation on skyticket in only 3 minutes!

Budget travelers! Book cheap air tickets on skyticket!

Easy reservation on skyticket! Fly on the lowest airfares available!

Travel overseas with affordable air tickets on popular airlines!

From Economy class to the luxurious First class, book now with skyticket for the Best Airfares!

Let skyticket take you around the world! Air tickets available from One-way, Round trip or Multi-stop!

Cheapest airfares from skyticket for family tours!

Book Budget Flights with skyticket / Cheap Airfares for Flights from
Heathrow-Pisa Airport

ステータス:
メッセージ1
メッセージ2
メッセージ3
メッセージ4
メッセージ5
メッセージ6
メッセージ7
メッセージ8
メッセージ9
メッセージ10
メッセージ11
メッセージ12
メッセージ13
メッセージ14