行きたい日付からパパッと検索!航空券の最安値が見つかる!

Papeete (Tahiti)
Fa'a'a International Airport

San Francisco
San Francisco International Airport

 San Francisco Airport Fa'a'a 

Prices vary with departure date. Click on the calendar to select a departure date.

Departure Date

2021/6
Sun Mon Tue Wed Thu Fri Sat
1------2------3------4------5------
6------7------8------9------10------11------12------
13------14------15------16------17------18------19------
20------21------22------23------24------25------26Search
27Search28Search29Search30Search
Select Return Date   Change Departure Date

Return Date

2021/6
SunMonTueWedThuFriSat
1------2------3------4------5------
6------7------8------9------10------11------12------
13------14------15------16------17------18------19------
20------21------22------23------24------25------26------
27------28------29------30------
  Select Departure Date

Currency:US Dollar Loading Searching Fares Updating Fares

Departure Date
Return Date
Total Fares(Round Trip/Economy)

* Displayed fare(s) may differ from the actual search result

  • Fa'a'a-San Francisco Airport

    June Lowest Airfares -----
  • Fa'a'a-San Francisco Airport

    July Lowest Airfares -----
  • Fa'a'a-San Francisco Airport

    August Lowest Airfares -----
  • Fa'a'a-San Francisco Airport

    September Lowest Airfares -----
  • Fa'a'a-San Francisco Airport

    October Lowest Airfares -----
  • Papeete (Tahiti)-San Francisco
    Estimated Flight Time

    9Hours24Minutes
  • Papeete (Tahiti)-San Francisco
    Number of Operating Airlines

    0
  • Other Destinations from:Papeete (Tahiti)

    * Fares vary in accordance to seat availability
  • Other Departures to: San Francisco

    * Fares vary in accordance to seat availability

Book Budget Flights with skyticket / Cheap Airfares for Flights from
Fa'a'a-San Francisco Airport

ステータス:
メッセージ1
メッセージ2
メッセージ3
メッセージ4
メッセージ5
メッセージ6
メッセージ7
メッセージ8
メッセージ9
メッセージ10
メッセージ11
メッセージ12
メッセージ13
メッセージ14