行きたい日付からパパッと検索!航空券の最安値が見つかる!

Kunming
Kunming Changshui International Airport

Taipei
Taoyuan International Airport

 Taoyuan Airport Changshui 

Prices vary with departure date. Click on the calendar to select a departure date.

Departure Date

2019/8
Sun Mon Tue Wed Thu Fri Sat
1------2------3------
4------5------6------7------8------9------10------
11------12------13------14------15------16------17------
18------19------20------21------22------23------24------
25------26------27------28------293663033231362
Select Return Date   Change Departure Date

Return Date

2019/8
SunMonTueWedThuFriSat
1------2------3------
4------5------6------7------8------9------10------
11------12------13------14------15------16------17------
18------19------20------21------22------23------24------
25------26------27------28------29------30------31------
  Select Departure Date

Currency:US Dollar Loading Searching Fares Updating Fares

Departure Date
Return Date
Total Fares(Round Trip/Economy)

* Displayed fare(s) may differ from the actual search result

  • Kunming-Taipei
    Estimated Flight Time

    3Hours15Minutes
  • Kunming-Taipei
    Number of Operating Airlines

    11

Enjoy breathtaking views of travel spots with easy reservation on skyticket!

Best deals on air tickets to popular resorts overseas!

Solo travelers! The best airfares are available here on skyticket!

Enjoy student trips with cheap air tickets from skyticket!

Couple Travels! Get the lowest air tickets from skyticket!

From Economy class to the luxurious First class, book now with skyticket for the Best Airfares!

Search for popular airline tickets on skyticket!

Easy reservation for flights to Taipei without being a member! Search cheap airfares from multiple airlines.

Easy reservation with skyticket! Recommended low airfare searches!

Easy reservation for the cheapest air tickets on skyticket!

Book Budget Flights with skyticket / Cheap Airfares for Flights from
Changshui-Taoyuan Airport

ステータス:
メッセージ1
メッセージ2
メッセージ3
メッセージ4
メッセージ5
メッセージ6
メッセージ7
メッセージ8
メッセージ9
メッセージ10
メッセージ11
メッセージ12
メッセージ13
メッセージ14