行きたい日付からパパッと検索!航空券の最安値が見つかる!

Tokyo
Haneda Airport

Chennai (Madras)
Chennai International Airport

 Chennai Airport Haneda 

Prices vary with departure date. Click on the calendar to select a departure date.

Departure Date

2019/7
Sun Mon Tue Wed Thu Fri Sat
1------2------3------4------5------6------
7------8------9------10------11------12------13------
14------15------16------17------18------19------20------
21------22------23------24------259622684127632
286522968530644312,829
Select Return Date   Change Departure Date

Return Date

2019/7
SunMonTueWedThuFriSat
1------2------3------4------5------6------
7------8------9------10------11------12------13------
14------15------16------17------18------19------20------
21------22------23------24------25------26------27------
28------29------30------31------
  Select Departure Date

Currency:US dollar Loading Searching Fares Updating Fares

Departure Date
Return Date
Total Fares(Round Trip/Economy)

* Displayed fare(s) may differ from the actual search result

  • Tokyo-Chennai (Madras)
    Estimated Flight Time

    10Hours40Minutes
  • Tokyo-Chennai (Madras)
    Number of Operating Airlines

    18

Make your reservation on skyticket in only 3 minutes!

Look for cheap LCC air tickets on skyticket!

Book air tickets on skyticket and get the best travel deals!

Use skyticket for budget holiday.

Find the best deals for air tickets on skyticket!

Search and book your flights on skyticket's hassle-free platform!

Travel overseas with skyticket's budgeted airfares!

Buy air tickets on skyticket and travel worldwide!

Travel the world's popular sites with budgeted airfares from skyticket!

Easy reservation with skyticket! Recommended low airfare searches!

Book Budget Flights with skyticket / Cheap Airfares for Flights from
Haneda-Chennai Airport

ステータス:
メッセージ1
メッセージ2
メッセージ3
メッセージ4
メッセージ5
メッセージ6
メッセージ7
メッセージ8
メッセージ9
メッセージ10
メッセージ11
メッセージ12
メッセージ13
メッセージ14